  0
SECTION
  2
HEADER
  9
$ACADVER
  1
AC1009
  9
$INSBASE
 10
-1.741309334720021
 20
-325.7480958133944
 30
0.0
  9
$EXTMIN
 10
-2.263270908589486
 20
-325.7480958133944
 30
0.0
  9
$EXTMAX
 10
59.02547253225088
 20
33.31119042571587
 30
0.0
  9
$LIMMIN
 10
0.0
 20
0.0
  9
$LIMMAX
 10
420.0
 20
297.0
  9
$ORTHOMODE
 70
     1
  9
$REGENMODE
 70
     1
  9
$FILLMODE
 70
     1
  9
$QTEXTMODE
 70
     0
  9
$MIRRTEXT
 70
     0
  9
$DRAGMODE
 70
     2
  9
$LTSCALE
 40
1.0
  9
$OSMODE
 70
     0
  9
$ATTMODE
 70
     1
  9
$TEXTSIZE
 40
3.5
  9
$TRACEWID
 40
0.1
  9
$TEXTSTYLE
  7
STANDARD
  9
$CLAYER
  8
ITEM_50
  9
$CELTYPE
  6
BYLAYER
  9
$CECOLOR
 62
   256
  9
$DIMSCALE
 40
1.0
  9
$DIMASZ
 40
2.0
  9
$DIMEXO
 40
1.0
  9
$DIMDLI
 40
8.0
  9
$DIMRND
 40
0.0
  9
$DIMDLE
 40
0.0
  9
$DIMEXE
 40
2.0
  9
$DIMTP
 40
0.1
  9
$DIMTM
 40
0.1
  9
$DIMTXT
 40
3.5
  9
$DIMCEN
 40
2.0
  9
$DIMTSZ
 40
0.0
  9
$DIMTOL
 70
     0
  9
$DIMLIM
 70
     0
  9
$DIMTIH
 70
     0
  9
$DIMTOH
 70
     0
  9
$DIMSE1
 70
     0
  9
$DIMSE2
 70
     0
  9
$DIMTAD
 70
     1
  9
$DIMZIN
 70
     8
  9
$DIMBLK
  1

  9
$DIMASO
 70
     1
  9
$DIMSHO
 70
     1
  9
$DIMPOST
  1

  9
$DIMAPOST
  1

  9
$DIMALT
 70
     0
  9
$DIMALTD
 70
     2
  9
$DIMALTF
 40
25.39999999999999
  9
$DIMLFAC
 40
1.0
  9
$DIMTOFL
 70
     1
  9
$DIMTVP
 40
0.0
  9
$DIMTIX
 70
     0
  9
$DIMSOXD
 70
     0
  9
$DIMSAH
 70
     0
  9
$DIMBLK1
  1

  9
$DIMBLK2
  1

  9
$DIMSTYLE
  2
*UNNAMED
  9
$DIMCLRD
 70
     0
  9
$DIMCLRE
 70
     0
  9
$DIMCLRT
 70
     0
  9
$DIMTFAC
 40
1.0
  9
$DIMGAP
 40
0.09
  9
$LUNITS
 70
     2
  9
$LUPREC
 70
     3
  9
$SKETCHINC
 40
0.1
  9
$FILLETRAD
 40
20.0
  9
$AUNITS
 70
     0
  9
$AUPREC
 70
     1
  9
$MENU
  1

  9
$ELEVATION
 40
0.0
  9
$PELEVATION
 40
0.0
  9
$THICKNESS
 40
0.0
  9
$LIMCHECK
 70
     0
  9
$BLIPMODE
 70
     0
  9
$CHAMFERA
 40
5.0
  9
$CHAMFERB
 40
5.0
  9
$SKPOLY
 70
     1
  9
$TDCREATE
 40
2448895.551936342
  9
$TDUPDATE
 40
2449393.450811110
  9
$TDINDWG
 40
0.0000590278
  9
$TDUSRTIMER
 40
0.0000590278
  9
$USRTIMER
 70
     1
  9
$ANGBASE
 50
0.0
  9
$ANGDIR
 70
     0
  9
$PDMODE
 70
     3
  9
$PDSIZE
 40
0.0
  9
$PLINEWID
 40
0.0
  9
$COORDS
 70
     2
  9
$SPLFRAME
 70
     0
  9
$SPLINETYPE
 70
     6
  9
$SPLINESEGS
 70
     8
  9
$ATTDIA
 70
     1
  9
$ATTREQ
 70
     1
  9
$HANDLING
 70
     0
  9
$HANDSEED
  5
191
  9
$SURFTAB1
 70
     6
  9
$SURFTAB2
 70
     6
  9
$SURFTYPE
 70
     6
  9
$SURFU
 70
     6
  9
$SURFV
 70
     6
  9
$UCSNAME
  2

  9
$UCSORG
 10
0.0
 20
0.0
 30
0.0
  9
$UCSXDIR
 10
1.0
 20
0.0
 30
0.0
  9
$UCSYDIR
 10
0.0
 20
1.0
 30
0.0
  9
$PUCSNAME
  2

  9
$PUCSORG
 10
0.0
 20
0.0
 30
0.0
  9
$PUCSXDIR
 10
1.0
 20
0.0
 30
0.0
  9
$PUCSYDIR
 10
0.0
 20
1.0
 30
0.0
  9
$USERI1
 70
     0
  9
$USERI2
 70
     3
  9
$USERI3
 70
    15
  9
$USERI4
 70
     0
  9
$USERI5
 70
     0
  9
$USERR1
 40
1.0
  9
$USERR2
 40
1.0
  9
$USERR3
 40
0.0
  9
$USERR4
 40
1.0
  9
$USERR5
 40
0.0
  9
$WORLDVIEW
 70
     5
  9
$SHADEDGE
 70
     3
  9
$SHADEDIF
 70
    70
  9
$TILEMODE
 70
     1
  9
$MAXACTVP
 70
    16
  9
$PINSBASE
 10
0.0
 20
0.0
 30
0.0
  9
$PLIMCHECK
 70
     0
  9
$PEXTMIN
 10
1.000000000000000E+20
 20
1.000000000000000E+20
 30
1.000000000000000E+20
  9
$PEXTMAX
 10
-1.000000000000000E+20
 20
-1.000000000000000E+20
 30
-1.000000000000000E+20
  9
$PLIMMIN
 10
0.0
 20
0.0
  9
$PLIMMAX
 10
12.0
 20
9.0
  9
$UNITMODE
 70
     0
  9
$VISRETAIN
 70
     0
  9
$PLINEGEN
 70
     0
  9
$PSLTSCALE
 70
     0
  9
$TREEDEPTH
 70
  3020
  9
$DWGCODEPAGE
  3
undefined
  0
ENDSEC
  0
SECTION
  2
TABLES
  0
TABLE
  2
VPORT
 70
     2
  0
VPORT
  2
*ACTIVE
 70
     0
 10
0.0
 20
0.0
 11
1.0
 21
1.0
 12
245.779036488392
 22
-131.7173162486667
 13
0.0
 23
0.0
 14
1.0
 24
1.0
 15
10.0
 25
10.0
 16
0.0
 26
0.0
 36
1.0
 17
0.0
 27
0.0
 37
0.0
 40
388.0615591294553
 41
1.275675675675675
 42
50.0
 43
0.0
 44
0.0
 50
0.0
 51
0.0
 71
     0
 72
   100
 73
     1
 74
     0
 75
     0
 76
     0
 77
     0
 78
     0
  0
ENDTAB
  0
TABLE
  2
LTYPE
 70
     3
  0
LTYPE
  2
CONTINUOUS
 70
    64
  3
Solid line
 72
    65
 73
     0
 40
0.0
  0
LTYPE
  2
GEN
 70
    64
  3
----------------------
 72
    65
 73
     2
 40
10000000000.0
 49
0.0
 49
10000000000.0
  0
LTYPE
  2
ITEM-STRICHPUNKT
 70
    64
  3
__ . __ . __
 72
    65
 73
     4
 40
3.599999999999999
 49
2.399999999999999
 49
-0.6
 49
0.0
 49
-0.6
  0
ENDTAB
  0
TABLE
  2
LAYER
 70
     4
  0
LAYER
  2
0
 70
     0
 62
     7
  6
GEN
  0
LAYER
  2
ITEM_50
 70
    64
 62
     7
  6
CONTINUOUS
  0
LAYER
  2
ITEM_STP
 70
    64
 62
     4
  6
ITEM-STRICHPUNKT
  0
LAYER
  2
ITEM_HILFE
 70
    64
 62
     3
  6
CONTINUOUS
  0
ENDTAB
  0
TABLE
  2
STYLE
 70
     1
  0
STYLE
  2
STANDARD
 70
     0
 40
0.0
 41
1.0
 50
0.0
 71
     0
 42
3.5
  3
ISO8
  4

  0
ENDTAB
  0
TABLE
  2
VIEW
 70
     0
  0
ENDTAB
  0
TABLE
  2
UCS
 70
     0
  0
ENDTAB
  0
TABLE
  2
APPID
 70
     1
  0
APPID
  2
ACAD
 70
    64
  0
ENDTAB
  0
TABLE
  2
DIMSTYLE
 70
     0
  0
ENDTAB
  0
ENDSEC
  0
SECTION
  2
BLOCKS
  0
ENDSEC
  0
SECTION
  2
ENTITIES
  0
LINE
  8
ITEM_50
 10
4.612674278228821
 20
-4.236883132500076
 30
0.0
 11
4.612674278228821
 21
-324.2368831325
 31
0.0
  0
LINE
  8
ITEM_50
 10
44.581934
 20
-4.236883132500076
 30
0.0
 11
44.58193400000001
 21
-324.2368831325
 31
0.0
  0
LINE
  8
ITEM_50
 10
4.61267427822882
 20
-4.236883132500076
 30
0.0
 11
44.58193399999999
 21
-4.236883132500076
 31
0.0
  0
LINE
  8
ITEM_50
 10
4.61267427822882
 20
-324.2368831325
 30
0.0
 11
44.58193399999999
 21
-324.2368831325
 31
0.0
  0
LINE
  8
ITEM_STP
 10
24.597304
 20
-325.7480958133944
 30
0.0
 11
24.597304
 21
-3.01553666754222
 31
0.0
  0
LINE
  8
ITEM_50
 10
24.59730399999999
 20
-4.236883132500076
 30
0.0
 11
24.59730399999999
 21
-324.2368831325
 31
0.0
  0
LINE
  8
ITEM_50
 10
37.99730399999999
 20
-4.236883132500076
 30
0.0
 11
37.99730399999999
 21
-324.2368831325
 31
0.0
  0
LINE
  8
ITEM_50
 10
11.197304
 20
-4.236883132500076
 30
0.0
 11
11.197304
 21
-324.2368831325
 31
0.0
  0
LINE
  8
ITEM_50
 10
33.38831199999999
 20
13.79560451712639
 30
0.0
 11
34.931111
 21
10.76768951712639
 31
0.0
  0
ARC
  8
ITEM_50
 10
34.54450599999999
 20
10.45061551712639
 30
0.0
 40
0.5
 50
224.994134
 51
39.35682099999999
  0
LINE
  8
ITEM_50
 10
32.53245199999999
 20
15.20277351712639
 30
0.0
 11
36.011518
 21
18.68183951712639
 31
0.0
  0
ARC
  8
ITEM_50
 10
32.617304
 20
14.45516851712639
 30
0.0
 40
0.12
 50
180.0
 51
263.8493599999999
  0
ARC
  8
ITEM_50
 10
32.617304
 20
15.11792051712639
 30
0.0
 40
0.12
 50
135.0
 51
180.0
  0
ARC
  8
ITEM_50
 10
32.49730399999999
 20
13.34161551712639
 30
0.0
 40
1.0
 50
27.0
 51
83.84936
  0
LINE
  8
ITEM_50
 10
32.49730399999999
 20
14.45516851712639
 30
0.0
 11
32.49730399999999
 21
15.11792051712639
 31
0.0
  0
ARC
  8
ITEM_50
 10
14.650103
 20
10.45061551712639
 30
0.0
 40
0.5
 50
140.643179
 51
315.005866
  0
LINE
  8
ITEM_50
 10
15.806297
 20
13.79560451712639
 30
0.0
 11
14.263497
 21
10.76768951712639
 31
0.0
  0
LINE
  8
ITEM_50
 10
16.697304
 20
14.45516851712639
 30
0.0
 11
16.697304
 21
15.11792051712639
 31
0.0
  0
ARC
  8
ITEM_50
 10
16.697304
 20
13.34161551712639
 30
0.0
 40
1.0
 50
96.15063999999999
 51
153.0
  0
ARC
  8
ITEM_50
 10
16.57730399999999
 20
15.11792051712639
 30
0.0
 40
0.12
 50
0.0
 51
45.0
  0
ARC
  8
ITEM_50
 10
16.57730399999999
 20
14.45516851712639
 30
0.0
 40
0.12
 50
276.15064
 51
0.0
  0
LINE
  8
ITEM_50
 10
16.66215699999999
 20
15.20277351712639
 30
0.0
 11
13.183091
 21
18.68183951712639
 31
0.0
  0
LINE
  8
ITEM_50
 10
8.597303999999994
 20
26.45061551712639
 30
0.0
 11
10.897304
 21
26.45061551712639
 31
0.0
  0
LINE
  8
ITEM_50
 10
33.515672
 20
18.75291251712639
 30
0.0
 11
33.515672
 21
18.75291251712639
 31
0.0
  0
LINE
  8
ITEM_STP
 10
24.59730399999999
 20
9.950615517126397
 30
0.0
 11
24.59730399999999
 21
27.44581451712639
 31
0.0
  0
LINE
  8
ITEM_50
 10
24.29730399999999
 20
26.45061551712639
 30
0.0
 11
11.49730399999999
 21
26.45061551712639
 31
0.0
  0
LINE
  8
ITEM_50
 10
24.59730399999999
 20
23.95061551712639
 30
0.0
 11
16.59730399999999
 21
23.95061551712639
 31
0.0
  0
ARC
  8
ITEM_50
 10
6.597329654405797
 20
19.11293629093268
 30
0.0
 40
2.0
 50
180.0004399999999
 51
101.537399
  0
ARC
  8
ITEM_50
 10
8.597303999999994
 20
22.45061551712639
 30
0.0
 40
3.0
 50
84.97616200000001
 51
180.0004399999999
  0
ARC
  8
ITEM_50
 10
8.597303999999994
 20
22.45061551712639
 30
0.0
 40
4.0
 50
84.97600000000001
 51
180.0004399999999
  0
LINE
  8
ITEM_50
 10
5.597304291197261
 20
22.45059246350164
 30
0.0
 11
5.597311248674401
 21
21.5624185816285
 31
0.0
  0
LINE
  8
ITEM_50
 10
4.597304428405649
 20
22.45058142924203
 30
0.0
 11
4.597329545675606
 21
19.11292128309322
 31
0.0
  0
ARC
  8
ITEM_50
 10
6.097311503003211
 20
21.56242206265558
 30
0.0
 40
0.5
 50
180.0004399999999
 51
281.5373989999999
  0
LINE
  8
ITEM_50
 10
14.59730399999999
 20
21.95061551712639
 30
0.0
 11
14.59730399999999
 21
21.80143551712639
 31
0.0
  0
LINE
  8
ITEM_50
 10
16.00319199999999
 20
18.40732351712639
 30
0.0
 11
17.89049199999999
 21
16.52002251712639
 31
0.0
  0
ARC
  8
ITEM_50
 10
19.397304
 20
21.80143551712639
 30
0.0
 40
4.799999999999999
 50
180.0
 51
225.0
  0
ARC
  8
ITEM_50
 10
9.197304000000002
 20
24.95061551712639
 30
0.0
 40
0.5
 50
0.0
 51
90.0
  0
ARC
  8
ITEM_50
 10
14.59730399999999
 20
20.09605351712639
 30
0.0
 40
2.0
 50
180.0
 51
225.0
  0
ARC
  8
ITEM_50
 10
13.638041
 20
25.20061551712639
 30
0.0
 40
0.25
 50
316.826546
 51
90.0
  0
ARC
  8
ITEM_50
 10
12.197304
 20
24.95061551712639
 30
0.0
 40
0.5
 50
90.0
 51
180.0
  0
LINE
  8
ITEM_50
 10
12.197304
 20
25.45061551712639
 30
0.0
 11
13.638041
 21
25.45061551712639
 31
0.0
  0
ARC
  8
ITEM_50
 10
17.10214799999999
 20
21.95062151712639
 30
0.0
 40
4.5
 50
136.826546
 51
180.0
  0
ARC
  8
ITEM_50
 10
11.197304
 20
26.39483751712639
 30
0.0
 40
0.12
 50
236.309932
 51
303.6900679999999
  0
LINE
  8
ITEM_50
 10
11.13074
 20
26.29499151712639
 30
0.0
 11
10.897304
 21
26.45061551712639
 31
0.0
  0
LINE
  8
ITEM_50
 10
11.49730399999999
 20
26.45061551712639
 30
0.0
 11
11.263868
 21
26.29499151712639
 31
0.0
  0
LINE
  8
ITEM_50
 10
12.59730399999999
 20
20.09605351712639
 30
0.0
 11
12.59730399999999
 21
21.95062151712639
 31
0.0
  0
LINE
  8
ITEM_50
 10
8.597296
 20
25.45061551712639
 30
0.0
 11
9.197304000000002
 21
25.45061551712639
 31
0.0
  0
LINE
  8
ITEM_50
 10
9.697304000000002
 20
23.95061551712639
 30
0.0
 11
9.697304000000002
 21
24.95061551712639
 31
0.0
  0
LINE
  8
ITEM_50
 10
11.697304
 20
24.95061551712639
 30
0.0
 11
11.697304
 21
23.95061551712639
 31
0.0
  0
ARC
  8
ITEM_50
 10
16.59730399999999
 20
21.95061551712639
 30
0.0
 40
2.0
 50
90.0
 51
180.0
  0
LINE
  8
ITEM_50
 10
15.00369299999999
 20
10.09709851712639
 30
0.0
 11
17.890673
 21
12.98466951712639
 31
0.0
  0
ARC
  8
ITEM_50
 10
16.122725
 20
14.75225551712639
 30
0.0
 40
2.5
 50
315.005866
 51
45.0
  0
LINE
  8
ITEM_50
 10
11.697304
 20
23.95061551712639
 30
0.0
 11
9.697304000000002
 21
23.95061551712639
 31
0.0
  0
LINE
  8
ITEM_50
 10
37.49730399999999
 20
23.95061551712639
 30
0.0
 11
39.49730399999999
 21
23.95061551712639
 31
0.0
  0
ARC
  8
ITEM_50
 10
33.07188399999999
 20
14.75225551712639
 30
0.0
 40
2.5
 50
135.0
 51
224.994134
  0
LINE
  8
ITEM_50
 10
34.190916
 20
10.09709851712639
 30
0.0
 11
31.303936
 21
12.98466951712639
 31
0.0
  0
LINE
  8
ITEM_50
 10
24.897304
 20
26.45061551712639
 30
0.0
 11
24.66386799999999
 21
26.29499151712639
 31
0.0
  0
LINE
  8
ITEM_50
 10
24.53073999999999
 20
26.29499151712639
 30
0.0
 11
24.29730399999999
 21
26.45061551712639
 31
0.0
  0
ARC
  8
ITEM_50
 10
24.59730399999999
 20
26.39483751712639
 30
0.0
 40
0.12
 50
236.309932
 51
303.6900679999999
  0
ARC
  8
ITEM_50
 10
32.59730399999999
 20
21.95061551712639
 30
0.0
 40
2.0
 50
0.0
 51
90.0
  0
LINE
  8
ITEM_50
 10
37.49730399999999
 20
24.95061551712639
 30
0.0
 11
37.49730399999999
 21
23.95061551712639
 31
0.0
  0
LINE
  8
ITEM_50
 10
39.49730399999999
 20
23.95061551712639
 30
0.0
 11
39.49730399999999
 21
24.95061551712639
 31
0.0
  0
LINE
  8
ITEM_50
 10
40.59731299999999
 20
25.45061551712639
 30
0.0
 11
39.99730399999999
 21
25.45061551712639
 31
0.0
  0
LINE
  8
ITEM_50
 10
38.29730399999999
 20
26.45061551712639
 30
0.0
 11
40.59730399999999
 21
26.45061551712639
 31
0.0
  0
LINE
  8
ITEM_50
 10
37.697304
 20
26.45061551712639
 30
0.0
 11
37.93074
 21
26.29499151712639
 31
0.0
  0
LINE
  8
ITEM_50
 10
38.06386799999999
 20
26.29499151712639
 30
0.0
 11
38.29730399999999
 21
26.45061551712639
 31
0.0
  0
ARC
  8
ITEM_50
 10
37.99730399999999
 20
26.39483751712639
 30
0.0
 40
0.12
 50
236.309932
 51
303.6900679999999
  0
LINE
  8
ITEM_50
 10
36.99730399999999
 20
25.45061551712639
 30
0.0
 11
35.55656799999999
 21
25.45061551712639
 31
0.0
  0
ARC
  8
ITEM_50
 10
36.99730399999999
 20
24.95061551712639
 30
0.0
 40
0.5
 50
0.0
 51
90.0
  0
ARC
  8
ITEM_50
 10
35.55656799999999
 20
25.20061551712639
 30
0.0
 40
0.25
 50
90.0
 51
223.1734539999999
  0
ARC
  8
ITEM_50
 10
39.99730399999999
 20
24.95061551712639
 30
0.0
 40
0.5
 50
90.0
 51
180.0
  0
ARC
  8
ITEM_50
 10
29.79730399999999
 20
21.80143551712639
 30
0.0
 40
4.799999999999999
 50
315.0
 51
0.0
  0
LINE
  8
ITEM_50
 10
33.191417
 20
18.40732351712639
 30
0.0
 11
31.304117
 21
16.52002251712639
 31
0.0
  0
LINE
  8
ITEM_50
 10
34.59730399999999
 20
21.95061551712639
 30
0.0
 11
34.59730399999999
 21
21.80143551712639
 31
0.0
  0
LINE
  8
ITEM_50
 10
24.59730399999999
 20
23.95061551712639
 30
0.0
 11
32.59730399999999
 21
23.95061551712639
 31
0.0
  0
ARC
  8
ITEM_50
 10
43.09729749315489
 20
21.56242215022861
 30
0.0
 40
0.5
 50
258.462601
 51
359.9995599999999
  0
LINE
  8
ITEM_50
 10
44.59730456775245
 20
22.45058151681505
 30
0.0
 11
44.59727845432439
 21
19.11292128309323
 31
0.0
  0
LINE
  8
ITEM_50
 10
43.58577699999999
 20
22.18787351712639
 30
0.0
 11
43.50798999999999
 21
21.30311251712639
 31
0.0
  0
ARC
  8
ITEM_50
 10
40.59730399999999
 20
22.45061551712639
 30
0.0
 40
4.0
 50
359.9995599999999
 51
95.024
  0
ARC
  8
ITEM_50
 10
40.59730399999999
 20
22.45061551712639
 30
0.0
 40
3.0
 50
359.9995599999999
 51
95.02383799999998
  0
ARC
  8
ITEM_50
 10
42.5972783455942
 20
19.11293629093269
 30
0.0
 40
2.0
 50
78.46260099999999
 51
359.9995599999999
  0
LINE
  8
ITEM_50
 10
24.897304
 20
26.45061551712639
 30
0.0
 11
37.697304
 21
26.45061551712639
 31
0.0
  0
POINT
  8
ITEM_HILFE
 10
4.597303999999994
 20
26.45061551712639
 30
0.0
  0
POINT
  8
ITEM_HILFE
 10
44.59730399999999
 20
26.45061551712639
 30
0.0
  0
POINT
  8
ITEM_HILFE
 10
24.59730399999999
 20
26.45061551712639
 30
0.0
  0
LINE
  8
ITEM_50
 10
36.59730399999999
 20
20.09605351712639
 30
0.0
 11
36.59730399999999
 21
21.95062151712639
 31
0.0
  0
ARC
  8
ITEM_50
 10
32.09245999999998
 20
21.95062151712639
 30
0.0
 40
4.5
 50
0.0
 51
43.17345399999997
  0
ARC
  8
ITEM_50
 10
34.59730399999999
 20
20.09605351712639
 30
0.0
 40
2.0
 50
315.0
 51
0.0
  0
LINE
  8
ITEM_50
 10
59.02547253225088
 20
26.45061551712639
 30
0.0
 11
58.02547253225088
 21
26.45061551712639
 31
0.0
  0
LINE
  8
ITEM_50
 10
59.02547253225088
 20
17.11293629093269
 30
0.0
 11
59.02547253225088
 21
26.45061551712639
 31
0.0
  0
LINE
  8
ITEM_50
 10
58.02547253225088
 20
17.11293629093269
 30
0.0
 11
59.02547253225088
 21
17.11293629093269
 31
0.0
  0
LINE
  8
ITEM_50
 10
58.02547253225088
 20
26.45061551712639
 30
0.0
 11
58.02547253225088
 21
17.11293629093269
 31
0.0
  0
ENDSEC
  0
EOF
